Stanley Jordan
Llevó la técnica del tapping a dos manos con un sonido limpio hasta niveles de complejidad orquestales equivalentes a los del piano.

Aútentico virtuoso de las seis cuerdas que llevó la técnica del tapping a dos manos con un sonido limpio hasta niveles de complejidad orquestales equivalentes a los del piano.
Basandose enteramente en esta técnica, es capaz de producir el sonido de dos o tres guitarristas al mismo tiempo, usando lineas de bajo, acompañamientos de acordes y melodías solistas a la vez, creando una manera totalmente nueva de tocar la guitarra.
Su andadura musical se remonta en 1981, cuando tocaba por las calles de Nueva York y Filadelfia ganandose unos dolares. Fue corriendo la voz de que había un guitarrista realmente asombroso tocando en la calle por lo que la gente le echaba y Bruce Lundvall, alto ejecutivo de Elektra Records le solicito una audición. En seguida le ofreció un contrato que Stanley rechazó por pensar que aún no estaba preparado. Un año y medio mas tarde, Lundvall se traslado al sello Blue Note y esta vez sí pudo fichar a Stanley.
Magic Touch (1985), su primer album, resulto un gran éxito que obtuvo dos nominaciones a los premios Grammy, permaneció cincuenta y una semanas en le número uno de las listas Billboard de Jazz y fue disco de oro en Estados Unidos y Japón.
Al año siguiente, hacía una aparición en la pelicula cita a ciegas, con Kim Basinger y Bruce Willis, y frecuentes incursiones televisivas en los populares shows de Johnny Carson y David Letterman.
Según el propio Stanley, los únicos requisitos que debe cumplir el instrumento para poder absorver su singular técnica con éxito son: una acción muy baja (las cuerdas deben casi tocar los trastes), un gran sustain y unos trastes impecables. ¿Te atreves?.

Algunos ejercicios redactados por el propio Stanley

Ej.1:

Mano Izquierda:

E||--------------------------|--------------------------|
B||--------------------------|--------------------------|
G||--------------------------|--------------------------|
D||-----------4--6--4--------|-----------4--6--4--------|
A||--4--6--7-----------7--6--|--4--6--7-----------7--6--|
E||--------------------------|--------------------------|


Mano Derecha:

----------------------------------|----------------------------------|
----------------------------------|----------------------------------|
--------------11--13--11----------|--------------11--13--11----------|
--11--13--14--------------14--13--|--11--13--14--------------14--13--|
----------------------------------|----------------------------------|
----------------------------------|----------------------------------|

Ambas:

----------------------------------|----------------------------------||
----------------------------------|----------------------------------||
--------------11--13--11----------|--------------11--13--11----------||
--11--13--14--4---6---4---14--13--|--11--13--14--4---6---4---14--13--||
--4---6---7---------------7---6---|--4---6---7---------------7---6---||
----------------------------------|----------------------------------||


Bajar Archivo Midi

Ej.2:


Mano Izquierda:

E||--------------------------|--------------------------|
B||--------------------------|-----------5--7--5--------|
G||--------------------------|--4--6--7-----------7--6--|
D||-----------------4--6--7--|--------------------------|
A||--------4--5--7-----------|--------------------------|
E||--5--7--------------------|--------------------------|


--------------------------|
--------------------------|
--4-----------------------|
-----7--6--4--------------|
--------------7--5--4-----|
-----------------------7--|

Mano Derecha:

---------------------------------|
----------------------------------|
----------------------11--13--14--|
----------11--12--14--------------|
--12--14--------------------------|
----------------------------------|


--------------12--14--12----------|----------------------------------|
--12--14--15--------------15--14--|--12------------------------------|
----------------------------------|------14--13--11------------------|
----------------------------------|------------------14--12--11------|
----------------------------------|------------------------------14--|
----------------------------------|----------------------------------|

Ambas:

----------------------------------|--------------12--14--12----------|
----------------------------------|--12--14--15--5---7---5---15--14--|
----------------------11--13--14--|--4---6---7---------------7---6---|
----------11--12--14--4---6---7---|----------------------------------|
--12--14--4---5---7---------------|----------------------------------|
--5---7---------------------------|----------------------------------|



----------------------------------|--------------------||
--12------------------------------|--------------------||
--4---14--13--11------------------|--------------------||
------7---6---4---14--12--11------|--------------------||
------------------7---5---4---14--|--12----------------||
------------------------------7---|--5-----------------||


Bajar Archivo Midi


www.guitarraonline.com.ar
Webmasters: Pablo
Marcelo Roascio mroascio@guitarraonline.com.ar
Publicidad: Laura Goldar lauragoldar@gmail.com

Volver al Home contacto Foro Wiki buscar